студия DHS гостевая книга обмен ссылками
РУС / ENG
Седьмой Ангел
новости история дискография статьи download
 
Статьи

ВИДЕО - уроки от группы ACCEPT

     Wolf Hoffmann Мы очень надеемся, что эти видео-уроки от лидера группы "ACCEPT" Вольфа Хофмана помогут вам усовершенствовать вашу технику игры на электро и акустической - гитарах

Видео-уроки размещены в формате "Real Audio (RA)"
Проигрыватель можно взять здесь.



Общие рекомендации:
  1. Внимательно просмотрите видео-фрагмент.
  2. Внимательно изучите табулатурную транскрипцию, постарайтесь в ней расставить длительности нот в соответствии с изучаемым видео-фрагментом.
  3. Мелодию разучивайте вначале в медленном темпе [обязательно с метрономом] добиваясь четкости звучания каждой ноты.
  4. Постепенно переходите к тому же темпу, что и в оригинале [только не забывайте о четкости звучания]
  5. Попробуйте сыграть вместе с оригиналом.

Урок 1 - "Head Over Heels"

Левая рука


Оригинал

Медленный темп

Правая рука


Оригинал

Медленный темп

Табулатурная транскрипция:
E |-----------------------------------------------------------------|
H |-----------------------------------------------------------------|
G |-----------------------------------------------------------------|
D |-------7-------6-----------6-------------7-------6-----------6---|
A |-4---4-4-----4-4-----4-4-7-------4---4-4-------4-4-----4-4-7-----|

E |-----------------------------------------------------------------| E |-----------------------------------------------------------------| H |-----------------------------------------------------------------| G |-----------------------------------------------------------------| D |--------2---------------4---0-----------7-------6-------6-4------| A |-0---0-0-----0-0-2---2-2---------4---4-4-----4-4-------------7-6-| E |----------------------------------------------------4------------|

Изучаемый фрагмент риффа из песни "Head Over Heels" из классического альбома
группы ACCEPT - "Balls to the Wall".



Урок 2 - "Princess of the Dawn"


Оригинал

Медленный темп


Табулатурная транскрипция:
E |-----------------------------------------------------------------|
H |-3-----3---------1-----3---------3-----3-------------------------|
G |-2-----3---------0-----2---------2-----3-------5-5---7-7---------|
D |---0-0---0-0-0-0---0-0---0-0-0-0---0-0---0-0-0-5-5---7-7---------|
A |-----------------------------------------------3-3---5-5---------|
E |-----------------------------------------------------------------|
Представленный фрагмент представляет собой главный рифф из песни "Princess of the Dawn" из альбома "Restless and Wild".


Оригинал

Медленный темп

Как вы, наверное, заметили - этот рифф представляет собой предыдущий фрагмент, но с другой тональностью.


Оригинал

Медленный темп

Ну и наконец, разучим последний рифф из песни, который звучит в самом конце.

Табулатурная транскрипция:
E |------------------------------------6---8-6-5--------------------|
H |-----------6-----6-8---6-8-10----10---8-------8-6-5-6---5--------|
G |---7-6-7-9---7-9-----9------------------------------7---6-7------|
D |-7---------------------------------------------------------------|
A |-----------------------------------------------------------------|
E |-----------------------------------------------------------------|

Урок 3 - "Metal Heart"


Оригинал

Медленный темп

Этот рифф из легендарной песни группы "Metal Heart" из одноименного альбома.
Изучая его, не забывайте, что главное - это строгое соответствие ритма и длительности нот.

Табулатурная транскрипция:
E |-----------------------------------------------------------------|
B |-----------------------------------------------------------------|
G |--2--0--2---------5--4--5---------9---7--10-9--\2----------------|
D |--2--0--2---------7--5--7---------10--9--10-10-\2----------------|
A |--0-0--0--0-000-00--0--0--0-000-00---0--0-------0----------------|
E |-----------------------------------------------------------------|

  |1-ая концовка   |2-ая
E |----------------|(3)--|  
B |----------------|(3)--|  
G |----------------|-0---|  
D |(5)-------------|-0---|  
A |-5--------------|-x---|  
E |-3\(0)--0333034~|-3---|  


Урок 4 - "Breaking Up Again"


Оригинал

Этот фрагмент песни группы "Breaking Up Again" из альбома "Breaker". Несмотря на то, что этой песни 15 лет, она до сих остается одной из самых красивейших песен группы ACCEPT.

Табулатурная транскрипция:
E |3-----3-----3--2-----2-----2-----0-----0-------------------------|   
B |----0-----0--------0-----0-----------0-------0-----3-----3-----3-|   
G |--0-----0--------0-----0-----------0-------0-----------0-----0---|   
D |2--------------0-------------------------2-----------0-----0-----|   
A |---------------------------------3-----------------2-------------|   
E |-----------------------------------------------------------------|   
    
E |----------------------------------------0----------------2-----2-|   
B |3-----3-----1p0h1-----1p0h1---1-------0-------0--------0-----0---|   
G |----2-----2---------2-------2-------0-------0--------2-----2-----|   
D |--0-----0---------2-------2-------2-------2--------1-------------|   
A |----------------0--------------------------------2---------------|   
E |2-------------------------------0--------------------------------|   
                                            Замедляя .........  
  
E |--0---------|   
B |--0---------|   
G |--0---------|   
D |--2---------|   
A |--2---------|   
E |--0---------|   


© Алексей Попов.


Благодарим лидера группы ACCEPT - Wolf Hoffmann за предоставленные видеоматериалы.


 
Copyright © 2004, 7angel
email: наш e-mail
Правильный рейтинг bigmir)net TOP 100 ЧИСТЫЙ ИНТЕРНЕТ - logoSlovo.RU Каталог христианских ресурсов Для ТЕБЯ
 
Иисус не несет ответственности за размещенную на Вашем сайте рекламу.